ISO-10303-21;
HEADER;
FILE_DESCRIPTION (( 'STEP AP214' ),
    '1' );
FILE_NAME ('GCC-411112.STEP',
    '2020-02-15T10:10:51',
    ( 'China' ),
    ( 'Microsoft' ),
    'SwSTEP 2.0',
    'SolidWorks 2018',
    '' );
FILE_SCHEMA (( 'AUTOMOTIVE_DESIGN' ));
ENDSEC;

DATA;
#1 = LINE ( 'NONE', #51, #73 ) ;
#2 = EDGE_LOOP ( 'NONE', ( #211, #147, #27, #43 ) ) ;
#3 = AXIS2_PLACEMENT_3D ( 'NONE', #217, #200, #87 ) ;
#4 = AXIS2_PLACEMENT_3D ( 'NONE', #145, #102, #128 ) ;
#5 = VECTOR ( 'NONE', #84, 1000.000000000000000 ) ;
#6 = PRODUCT_DEFINITION_CONTEXT ( 'detailed design', #24, 'design' ) ;
#7 = VERTEX_POINT ( 'NONE', #10 ) ;
#8 = CYLINDRICAL_SURFACE ( 'NONE', #16, 12.69999999999999929 ) ;
#9 = ORIENTED_EDGE ( 'NONE', *, *, #54, .T. ) ;
#10 = CARTESIAN_POINT ( 'NONE',  ( -12.40000000000000036, 1.536931732929928200E-15, 0.0000000000000000000 ) ) ;
#11 = AXIS2_PLACEMENT_3D ( 'NONE', #99, #103, #123 ) ;
#12 = DIRECTION ( 'NONE',  ( 1.000000000000000000, 0.0000000000000000000, 0.0000000000000000000 ) ) ;
#13 = CARTESIAN_POINT ( 'NONE',  ( 12.69999999999999929, 1.555301434917138433E-15, 2.699999999999994849 ) ) ;
#14 = VERTEX_POINT ( 'NONE', #175 ) ;
#15 = CARTESIAN_POINT ( 'NONE',  ( 0.0000000000000000000, 0.0000000000000000000, 0.2999999999999981570 ) ) ;
#16 = AXIS2_PLACEMENT_3D ( 'NONE', #35, #111, #179 ) ;
#17 = CARTESIAN_POINT ( 'NONE',  ( -12.39999999999999325, 0.0000000000000000000, 3.000000000000000000 ) ) ;
#18 = ORIENTED_EDGE ( 'NONE', *, *, #205, .T. ) ;
#19 = DIRECTION ( 'NONE',  ( 0.0000000000000000000, 0.0000000000000000000, -1.000000000000000000 ) ) ;
#20 = DIRECTION ( 'NONE',  ( 1.000000000000000000, 0.0000000000000000000, 0.0000000000000000000 ) ) ;
#21 =( NAMED_UNIT ( * ) PLANE_ANGLE_UNIT ( ) SI_UNIT ( $, .RADIAN. ) );
#22 = ORIENTED_EDGE ( 'NONE', *, *, #238, .T. ) ;
#23 = DIRECTION ( 'NONE',  ( -0.0000000000000000000, -0.0000000000000000000, -1.000000000000000000 ) ) ;
#24 = APPLICATION_CONTEXT ( 'automotive_design' ) ;
#25 = PRESENTATION_LAYER_ASSIGNMENT (  '', '', ( #71 ) ) ;
#26 = CIRCLE ( 'NONE', #135, 12.69999999999999929 ) ;
#27 = ORIENTED_EDGE ( 'NONE', *, *, #155, .T. ) ;
#28 = EDGE_CURVE ( 'NONE', #59, #101, #94, .T. ) ;
#29 = CARTESIAN_POINT ( 'NONE',  ( 0.0000000000000000000, 0.0000000000000000000, 3.000000000000000000 ) ) ;
#30 = FILL_AREA_STYLE_COLOUR ( '', #68 ) ;
#31 = FACE_OUTER_BOUND ( 'NONE', #142, .T. ) ;
#32 = AXIS2_PLACEMENT_3D ( 'NONE', #29, #67, #127 ) ;
#33 = ADVANCED_FACE ( 'NONE', ( #230 ), #77, .T. ) ;
#34 = CARTESIAN_POINT ( 'NONE',  ( 0.0000000000000000000, 0.0000000000000000000, 2.699999999999994849 ) ) ;
#35 = CARTESIAN_POINT ( 'NONE',  ( 0.0000000000000000000, 0.0000000000000000000, 3.000000000000000000 ) ) ;
#36 = DIRECTION ( 'NONE',  ( 0.0000000000000000000, 0.0000000000000000000, -1.000000000000000000 ) ) ;
#37 = DIRECTION ( 'NONE',  ( -0.7071067811865495711, 0.0000000000000000000, -0.7071067811865454633 ) ) ;
#38 = CARTESIAN_POINT ( 'NONE',  ( 12.69999999999999929, 1.555301434917138433E-15, 0.2999999999999981570 ) ) ;
#39 = CYLINDRICAL_SURFACE ( 'NONE', #45, 12.69999999999999929 ) ;
#40 = FACE_OUTER_BOUND ( 'NONE', #203, .T. ) ;
#41 = DIRECTION ( 'NONE',  ( -0.0000000000000000000, -0.0000000000000000000, 1.000000000000000000 ) ) ;
#42 = FILL_AREA_STYLE ('',( #116 ) ) ;
#43 = ORIENTED_EDGE ( 'NONE', *, *, #61, .F. ) ;
#44 = UNCERTAINTY_MEASURE_WITH_UNIT (LENGTH_MEASURE( 1.000000000000000082E-05 ), #63, 'distance_accuracy_value', 'NONE');
#45 = AXIS2_PLACEMENT_3D ( 'NONE', #221, #167, #69 ) ;
#46 = ORIENTED_EDGE ( 'NONE', *, *, #176, .F. ) ;
#47 = VECTOR ( 'NONE', #37, 1000.000000000000000 ) ;
#48 = SURFACE_SIDE_STYLE ('',( #197 ) ) ;
#49 = ORIENTED_EDGE ( 'NONE', *, *, #218, .T. ) ;
#50 = AXIS2_PLACEMENT_3D ( 'NONE', #177, #126, #12 ) ;
#51 = CARTESIAN_POINT ( 'NONE',  ( 12.69999999999999929, 0.0000000000000000000, 0.2999999999999981570 ) ) ;
#52 = DIRECTION ( 'NONE',  ( 0.0000000000000000000, 0.0000000000000000000, 1.000000000000000000 ) ) ;
#53 = SURFACE_SIDE_STYLE ('',( #144 ) ) ;
#54 = EDGE_CURVE ( 'NONE', #101, #172, #64, .T. ) ;
#55 = VECTOR ( 'NONE', #216, 1000.000000000000000 ) ;
#56 = ORIENTED_EDGE ( 'NONE', *, *, #100, .T. ) ;
#57 = ORIENTED_EDGE ( 'NONE', *, *, #61, .T. ) ;
#58 = EDGE_CURVE ( 'NONE', #7, #14, #96, .T. ) ;
#59 = VERTEX_POINT ( 'NONE', #122 ) ;
#60 = ORIENTED_EDGE ( 'NONE', *, *, #58, .T. ) ;
#61 = EDGE_CURVE ( 'NONE', #14, #172, #74, .T. ) ;
#62 = FACE_OUTER_BOUND ( 'NONE', #157, .T. ) ;
#63 =( LENGTH_UNIT ( ) NAMED_UNIT ( * ) SI_UNIT ( .MILLI., .METRE. ) );
#64 = LINE ( 'NONE', #194, #220 ) ;
#65 = ORIENTED_EDGE ( 'NONE', *, *, #133, .F. ) ;
#66 =( GEOMETRIC_REPRESENTATION_CONTEXT ( 3 ) GLOBAL_UNCERTAINTY_ASSIGNED_CONTEXT ( ( #240 ) ) GLOBAL_UNIT_ASSIGNED_CONTEXT ( ( #153, #184, #222 ) ) REPRESENTATION_CONTEXT ( 'NONE', 'WORKASPACE' ) );
#67 = DIRECTION ( 'NONE',  ( 0.0000000000000000000, 0.0000000000000000000, -1.000000000000000000 ) ) ;
#68 = COLOUR_RGB ( '',0.9411764705882352811, 0.9607843137254902244, 0.9686274509803921573 ) ;
#69 = DIRECTION ( 'NONE',  ( -1.000000000000000000, 0.0000000000000000000, 0.0000000000000000000 ) ) ;
#70 = ADVANCED_FACE ( 'NONE', ( #139 ), #119, .T. ) ;
#71 = STYLED_ITEM ( 'NONE', ( #213 ), #82 ) ;
#72 = DIRECTION ( 'NONE',  ( 1.000000000000000000, 0.0000000000000000000, 0.0000000000000000000 ) ) ;
#73 = VECTOR ( 'NONE', #107, 1000.000000000000000 ) ;
#74 = CIRCLE ( 'NONE', #50, 12.69999999999999929 ) ;
#75 = VERTEX_POINT ( 'NONE', #195 ) ;
#76 = AXIS2_PLACEMENT_3D ( 'NONE', #199, #108, #234 ) ;
#77 = CONICAL_SURFACE ( 'NONE', #32, 12.39999999999999325, 0.7853981633974511656 ) ;
#78 = APPLICATION_CONTEXT ( 'automotive_design' ) ;
#79 = FACE_OUTER_BOUND ( 'NONE', #85, .T. ) ;
#80 = EDGE_LOOP ( 'NONE', ( #49, #154 ) ) ;
#81 = CARTESIAN_POINT ( 'NONE',  ( 12.39999999999999325, 1.518562030942716784E-15, 3.000000000000000000 ) ) ;
#82 = MANIFOLD_SOLID_BREP ( 'µ¹½Ç1', #214 ) ;
#83 =( NAMED_UNIT ( * ) PLANE_ANGLE_UNIT ( ) SI_UNIT ( $, .RADIAN. ) );
#84 = DIRECTION ( 'NONE',  ( -0.7071067811865495711, 8.659560562354957510E-17, 0.7071067811865454633 ) ) ;
#85 = EDGE_LOOP ( 'NONE', ( #198, #180, #65, #228 ) ) ;
#86 = AXIS2_PLACEMENT_3D ( 'NONE', #210, #23, #209 ) ;
#87 = DIRECTION ( 'NONE',  ( 1.000000000000000000, 0.0000000000000000000, 0.0000000000000000000 ) ) ;
#88 = DIRECTION ( 'NONE',  ( 1.000000000000000000, 0.0000000000000000000, -0.0000000000000000000 ) ) ;
#89 = CARTESIAN_POINT ( 'NONE',  ( 0.0000000000000000000, 0.0000000000000000000, 3.000000000000000000 ) ) ;
#90 = VECTOR ( 'NONE', #225, 1000.000000000000000 ) ;
#91 = ADVANCED_FACE ( 'NONE', ( #79 ), #226, .T. ) ;
#92 = DIRECTION ( 'NONE',  ( 1.000000000000000000, 0.0000000000000000000, 0.0000000000000000000 ) ) ;
#93 = EDGE_LOOP ( 'NONE', ( #97, #110, #18, #121 ) ) ;
#94 = LINE ( 'NONE', #81, #55 ) ;
#95 = CIRCLE ( 'NONE', #3, 12.39999999999999325 ) ;
#96 = LINE ( 'NONE', #143, #5 ) ;
#97 = ORIENTED_EDGE ( 'NONE', *, *, #28, .F. ) ;
#98 = PRODUCT_DEFINITION_FORMATION_WITH_SPECIFIED_SOURCE ( 'ÈÎºÎ', '', #160, .NOT_KNOWN. ) ;
#99 = CARTESIAN_POINT ( 'NONE',  ( 0.0000000000000000000, 0.0000000000000000000, 0.2999999999999981570 ) ) ;
#100 = EDGE_CURVE ( 'NONE', #159, #59, #141, .T. ) ;
#101 = VERTEX_POINT ( 'NONE', #13 ) ;
#102 = DIRECTION ( 'NONE',  ( 0.0000000000000000000, 0.0000000000000000000, -1.000000000000000000 ) ) ;
#103 = DIRECTION ( 'NONE',  ( -0.0000000000000000000, -0.0000000000000000000, 1.000000000000000000 ) ) ;
#104 = ADVANCED_FACE ( 'NONE', ( #40 ), #163, .T. ) ;
#105 = AXIS2_PLACEMENT_3D ( 'NONE', #15, #232, #148 ) ;
#106 = ORIENTED_EDGE ( 'NONE', *, *, #155, .F. ) ;
#107 = DIRECTION ( 'NONE',  ( 0.7071067811865495711, 0.0000000000000000000, 0.7071067811865454633 ) ) ;
#108 = DIRECTION ( 'NONE',  ( -0.0000000000000000000, -0.0000000000000000000, -1.000000000000000000 ) ) ;
#109 = PRODUCT_DEFINITION_SHAPE ( 'NONE', 'NONE',  #158 ) ;
#110 = ORIENTED_EDGE ( 'NONE', *, *, #100, .F. ) ;
#111 = DIRECTION ( 'NONE',  ( -0.0000000000000000000, -0.0000000000000000000, -1.000000000000000000 ) ) ;
#112 = AXIS2_PLACEMENT_3D ( 'NONE', #188, #41, #92 ) ;
#113 = APPLICATION_PROTOCOL_DEFINITION ( 'draft international standard', 'automotive_design', 1998, #78 ) ;
#114 = FACE_OUTER_BOUND ( 'NONE', #80, .T. ) ;
#115 = SURFACE_STYLE_USAGE ( .BOTH. , #53 ) ;
#116 = FILL_AREA_STYLE_COLOUR ( '', #137 ) ;
#117 = ORIENTED_EDGE ( 'NONE', *, *, #227, .T. ) ;
#118 =( GEOMETRIC_REPRESENTATION_CONTEXT ( 3 ) GLOBAL_UNCERTAINTY_ASSIGNED_CONTEXT ( ( #44 ) ) GLOBAL_UNIT_ASSIGNED_CONTEXT ( ( #63, #83, #229 ) ) REPRESENTATION_CONTEXT ( 'NONE', 'WORKASPACE' ) );
#119 = CONICAL_SURFACE ( 'NONE', #11, 12.69999999999999929, 0.7853981633974511656 ) ;
#120 = AXIS2_PLACEMENT_3D ( 'NONE', #134, #138, #72 ) ;
#121 = ORIENTED_EDGE ( 'NONE', *, *, #161, .F. ) ;
#122 = CARTESIAN_POINT ( 'NONE',  ( 12.39999999999999325, 1.536931732929927411E-15, 3.000000000000000000 ) ) ;
#123 = DIRECTION ( 'NONE',  ( 1.000000000000000000, 0.0000000000000000000, 0.0000000000000000000 ) ) ;
#124 = CIRCLE ( 'NONE', #76, 12.40000000000000036 ) ;
#125 = AXIS2_PLACEMENT_3D ( 'NONE', #150, #236, #88 ) ;
#126 = DIRECTION ( 'NONE',  ( -0.0000000000000000000, -0.0000000000000000000, 1.000000000000000000 ) ) ;
#127 = DIRECTION ( 'NONE',  ( -1.000000000000000000, 0.0000000000000000000, 0.0000000000000000000 ) ) ;
#128 = DIRECTION ( 'NONE',  ( -1.000000000000000000, 0.0000000000000000000, 0.0000000000000000000 ) ) ;
#129 = AXIS2_PLACEMENT_3D ( 'NONE', #182, #219, #149 ) ;
#130 = ORIENTED_EDGE ( 'NONE', *, *, #215, .T. ) ;
#131 = CARTESIAN_POINT ( 'NONE',  ( 0.0000000000000000000, 0.0000000000000000000, 2.699999999999994849 ) ) ;
#132 = PLANE ( 'NONE',  #129 ) ;
#133 = EDGE_CURVE ( 'NONE', #75, #101, #26, .T. ) ;
#134 = CARTESIAN_POINT ( 'NONE',  ( 0.0000000000000000000, 0.0000000000000000000, 0.0000000000000000000 ) ) ;
#135 = AXIS2_PLACEMENT_3D ( 'NONE', #131, #19, #166 ) ;
#136 = PRODUCT_CONTEXT ( 'NONE', #78, 'mechanical' ) ;
#137 = COLOUR_RGB ( '',0.9411764705882352811, 0.9607843137254902244, 0.9686274509803921573 ) ;
#138 = DIRECTION ( 'NONE',  ( 0.0000000000000000000, 0.0000000000000000000, 1.000000000000000000 ) ) ;
#139 = FACE_OUTER_BOUND ( 'NONE', #2, .T. ) ;
#140 = ORIENTED_EDGE ( 'NONE', *, *, #54, .F. ) ;
#141 = CIRCLE ( 'NONE', #190, 12.39999999999999325 ) ;
#142 = EDGE_LOOP ( 'NONE', ( #140, #164, #22, #57 ) ) ;
#143 = CARTESIAN_POINT ( 'NONE',  ( -12.69999999999999929, 1.555301434917138433E-15, 0.2999999999999981570 ) ) ;
#144 = SURFACE_STYLE_FILL_AREA ( #42 ) ;
#145 = CARTESIAN_POINT ( 'NONE',  ( 0.0000000000000000000, 0.0000000000000000000, 3.000000000000000000 ) ) ;
#146 = FACE_OUTER_BOUND ( 'NONE', #174, .T. ) ;
#147 = ORIENTED_EDGE ( 'NONE', *, *, #218, .F. ) ;
#148 = DIRECTION ( 'NONE',  ( 1.000000000000000000, 0.0000000000000000000, 0.0000000000000000000 ) ) ;
#149 = DIRECTION ( 'NONE',  ( 1.000000000000000000, 0.0000000000000000000, -0.0000000000000000000 ) ) ;
#150 = CARTESIAN_POINT ( 'NONE',  ( 0.0000000000000000000, 0.0000000000000000000, 3.000000000000000000 ) ) ;
#151 = CIRCLE ( 'NONE', #86, 12.40000000000000036 ) ;
#152 = ADVANCED_FACE ( 'NONE', ( #31 ), #8, .T. ) ;
#153 =( LENGTH_UNIT ( ) NAMED_UNIT ( * ) SI_UNIT ( .MILLI., .METRE. ) );
#154 = ORIENTED_EDGE ( 'NONE', *, *, #176, .T. ) ;
#155 = EDGE_CURVE ( 'NONE', #208, #172, #1, .T. ) ;
#156 = PRODUCT_RELATED_PRODUCT_CATEGORY ( 'part', '', ( #160 ) ) ;
#157 = EDGE_LOOP ( 'NONE', ( #187, #9, #117, #183 ) ) ;
#158 = PRODUCT_DEFINITION ( 'Î´Öª', '', #98, #6 ) ;
#159 = VERTEX_POINT ( 'NONE', #17 ) ;
#160 = PRODUCT ( 'GCC-411112', 'GCC-411112', '', ( #136 ) ) ;
#161 = EDGE_CURVE ( 'NONE', #101, #75, #186, .T. ) ;
#162 = FILL_AREA_STYLE ('',( #30 ) ) ;
#163 = CONICAL_SURFACE ( 'NONE', #105, 12.69999999999999929, 0.7853981633974511656 ) ;
#164 = ORIENTED_EDGE ( 'NONE', *, *, #161, .T. ) ;
#165 = ADVANCED_BREP_SHAPE_REPRESENTATION ( 'GCC-411112', ( #82, #120 ), #185 ) ;
#166 = DIRECTION ( 'NONE',  ( 1.000000000000000000, 0.0000000000000000000, 0.0000000000000000000 ) ) ;
#167 = DIRECTION ( 'NONE',  ( -0.0000000000000000000, -0.0000000000000000000, -1.000000000000000000 ) ) ;
#168 = PLANE ( 'NONE',  #125 ) ;
#169 = ADVANCED_FACE ( 'NONE', ( #62 ), #39, .T. ) ;
#170 =( LENGTH_UNIT ( ) NAMED_UNIT ( * ) SI_UNIT ( .MILLI., .METRE. ) );
#171 = SHAPE_DEFINITION_REPRESENTATION ( #109, #165 ) ;
#172 = VERTEX_POINT ( 'NONE', #38 ) ;
#173 = MECHANICAL_DESIGN_GEOMETRIC_PRESENTATION_REPRESENTATION (  '', ( #212 ), #66 ) ;
#174 = EDGE_LOOP ( 'NONE', ( #56, #130 ) ) ;
#175 = CARTESIAN_POINT ( 'NONE',  ( -12.69999999999999929, 0.0000000000000000000, 0.2999999999999981570 ) ) ;
#176 = EDGE_CURVE ( 'NONE', #7, #208, #124, .T. ) ;
#177 = CARTESIAN_POINT ( 'NONE',  ( 0.0000000000000000000, 0.0000000000000000000, 0.2999999999999981570 ) ) ;
#178 = SURFACE_STYLE_USAGE ( .BOTH. , #48 ) ;
#179 = DIRECTION ( 'NONE',  ( -1.000000000000000000, 0.0000000000000000000, 0.0000000000000000000 ) ) ;
#180 = ORIENTED_EDGE ( 'NONE', *, *, #28, .T. ) ;
#181 = CARTESIAN_POINT ( 'NONE',  ( 12.40000000000000036, 0.0000000000000000000, 0.0000000000000000000 ) ) ;
#182 = CARTESIAN_POINT ( 'NONE',  ( 0.0000000000000000000, 0.0000000000000000000, 0.0000000000000000000 ) ) ;
#183 = ORIENTED_EDGE ( 'NONE', *, *, #238, .F. ) ;
#184 =( NAMED_UNIT ( * ) PLANE_ANGLE_UNIT ( ) SI_UNIT ( $, .RADIAN. ) );
#185 =( GEOMETRIC_REPRESENTATION_CONTEXT ( 3 ) GLOBAL_UNCERTAINTY_ASSIGNED_CONTEXT ( ( #224 ) ) GLOBAL_UNIT_ASSIGNED_CONTEXT ( ( #170, #21, #206 ) ) REPRESENTATION_CONTEXT ( 'NONE', 'WORKASPACE' ) );
#186 = CIRCLE ( 'NONE', #231, 12.69999999999999929 ) ;
#187 = ORIENTED_EDGE ( 'NONE', *, *, #133, .T. ) ;
#188 = CARTESIAN_POINT ( 'NONE',  ( 0.0000000000000000000, 0.0000000000000000000, 0.2999999999999981570 ) ) ;
#189 = PRESENTATION_STYLE_ASSIGNMENT (( #115 ) ) ;
#190 = AXIS2_PLACEMENT_3D ( 'NONE', #89, #52, #20 ) ;
#191 = MECHANICAL_DESIGN_GEOMETRIC_PRESENTATION_REPRESENTATION (  '', ( #71 ), #118 ) ;
#192 = DIRECTION ( 'NONE',  ( -0.0000000000000000000, -0.0000000000000000000, -1.000000000000000000 ) ) ;
#193 = LINE ( 'NONE', #239, #90 ) ;
#194 = CARTESIAN_POINT ( 'NONE',  ( 12.69999999999999929, 1.555301434917138433E-15, 3.000000000000000000 ) ) ;
#195 = CARTESIAN_POINT ( 'NONE',  ( -12.69999999999999929, 0.0000000000000000000, 2.699999999999994849 ) ) ;
#196 = ADVANCED_FACE ( 'NONE', ( #114 ), #132, .F. ) ;
#197 = SURFACE_STYLE_FILL_AREA ( #162 ) ;
#198 = ORIENTED_EDGE ( 'NONE', *, *, #215, .F. ) ;
#199 = CARTESIAN_POINT ( 'NONE',  ( 0.0000000000000000000, 0.0000000000000000000, 0.0000000000000000000 ) ) ;
#200 = DIRECTION ( 'NONE',  ( 0.0000000000000000000, 0.0000000000000000000, 1.000000000000000000 ) ) ;
#201 = CARTESIAN_POINT ( 'NONE',  ( -12.39999999999999325, 0.0000000000000000000, 3.000000000000000000 ) ) ;
#202 = LINE ( 'NONE', #201, #47 ) ;
#203 = EDGE_LOOP ( 'NONE', ( #46, #60, #233, #106 ) ) ;
#204 = ADVANCED_FACE ( 'NONE', ( #146 ), #168, .T. ) ;
#205 = EDGE_CURVE ( 'NONE', #159, #75, #202, .T. ) ;
#206 =( NAMED_UNIT ( * ) SI_UNIT ( $, .STERADIAN. ) SOLID_ANGLE_UNIT ( ) );
#207 = APPLICATION_PROTOCOL_DEFINITION ( 'draft international standard', 'automotive_design', 1998, #24 ) ;
#208 = VERTEX_POINT ( 'NONE', #181 ) ;
#209 = DIRECTION ( 'NONE',  ( 1.000000000000000000, 0.0000000000000000000, 0.0000000000000000000 ) ) ;
#210 = CARTESIAN_POINT ( 'NONE',  ( 0.0000000000000000000, 0.0000000000000000000, 0.0000000000000000000 ) ) ;
#211 = ORIENTED_EDGE ( 'NONE', *, *, #58, .F. ) ;
#212 = STYLED_ITEM ( 'NONE', ( #189 ), #165 ) ;
#213 = PRESENTATION_STYLE_ASSIGNMENT (( #178 ) ) ;
#214 = CLOSED_SHELL ( 'NONE', ( #91, #104, #169, #152, #204, #196, #70, #33 ) ) ;
#215 = EDGE_CURVE ( 'NONE', #59, #159, #95, .T. ) ;
#216 = DIRECTION ( 'NONE',  ( 0.7071067811865495711, 8.659560562354956277E-17, -0.7071067811865454633 ) ) ;
#217 = CARTESIAN_POINT ( 'NONE',  ( 0.0000000000000000000, 0.0000000000000000000, 3.000000000000000000 ) ) ;
#218 = EDGE_CURVE ( 'NONE', #208, #7, #151, .T. ) ;
#219 = DIRECTION ( 'NONE',  ( 0.0000000000000000000, 0.0000000000000000000, 1.000000000000000000 ) ) ;
#220 = VECTOR ( 'NONE', #192, 1000.000000000000000 ) ;
#221 = CARTESIAN_POINT ( 'NONE',  ( 0.0000000000000000000, 0.0000000000000000000, 3.000000000000000000 ) ) ;
#222 =( NAMED_UNIT ( * ) SI_UNIT ( $, .STERADIAN. ) SOLID_ANGLE_UNIT ( ) );
#223 = PRESENTATION_LAYER_ASSIGNMENT (  '', '', ( #212 ) ) ;
#224 = UNCERTAINTY_MEASURE_WITH_UNIT (LENGTH_MEASURE( 1.000000000000000082E-05 ), #170, 'distance_accuracy_value', 'NONE');
#225 = DIRECTION ( 'NONE',  ( -0.0000000000000000000, -0.0000000000000000000, -1.000000000000000000 ) ) ;
#226 = CONICAL_SURFACE ( 'NONE', #4, 12.39999999999999325, 0.7853981633974511656 ) ;
#227 = EDGE_CURVE ( 'NONE', #172, #14, #237, .T. ) ;
#228 = ORIENTED_EDGE ( 'NONE', *, *, #205, .F. ) ;
#229 =( NAMED_UNIT ( * ) SI_UNIT ( $, .STERADIAN. ) SOLID_ANGLE_UNIT ( ) );
#230 = FACE_OUTER_BOUND ( 'NONE', #93, .T. ) ;
#231 = AXIS2_PLACEMENT_3D ( 'NONE', #34, #36, #235 ) ;
#232 = DIRECTION ( 'NONE',  ( -0.0000000000000000000, -0.0000000000000000000, 1.000000000000000000 ) ) ;
#233 = ORIENTED_EDGE ( 'NONE', *, *, #227, .F. ) ;
#234 = DIRECTION ( 'NONE',  ( 1.000000000000000000, 0.0000000000000000000, 0.0000000000000000000 ) ) ;
#235 = DIRECTION ( 'NONE',  ( 1.000000000000000000, 0.0000000000000000000, 0.0000000000000000000 ) ) ;
#236 = DIRECTION ( 'NONE',  ( 0.0000000000000000000, 0.0000000000000000000, 1.000000000000000000 ) ) ;
#237 = CIRCLE ( 'NONE', #112, 12.69999999999999929 ) ;
#238 = EDGE_CURVE ( 'NONE', #75, #14, #193, .T. ) ;
#239 = CARTESIAN_POINT ( 'NONE',  ( -12.69999999999999929, 0.0000000000000000000, 3.000000000000000000 ) ) ;
#240 = UNCERTAINTY_MEASURE_WITH_UNIT (LENGTH_MEASURE( 1.000000000000000082E-05 ), #153, 'distance_accuracy_value', 'NONE');
ENDSEC;
END-ISO-10303-21;
